Trouble Cifra

Coldplay

  • Genero: Rock Internacional
  • Website: www.coldplay.com
  • Nacionalidade: Inglesa
  • Enviado por: Letras de Músicas

Cifra

Coldplay - Trouble - Cifra

Ver música original

Música enviada por: Letras de Músicas

e|--2-3-2--------2-3-2-------2-3-2------
B|--------3--0---------3-0---------3-0--


e|----5-3-2------2-3-2-------2-3-2------
B|---------3-0---------3-0---------3-0--


G Em Bm
e|-2-3-2----3---2-3-2---0---2-3-2---2--
B|-------3--3---------3-0---------3-3--
G|----------0-----------0-----------4--
D|----------0-----------2-----------4--
A|----------X-----------2-----------2--
E|----------3-----------0--------------

G Em Bm
e|---5-3-2--3---2-3-2---0---2-3-2---2--
B|--------3-3---------3-0---------3-3--
G|----------0-----------0-----------4--
D|----------0-----------2-----------4--
A|----------X-----------2-----------2--
E|----------3-----------0--------------


G Em Bm
Oh no , I see
F Am7 G
A spider web, it's tangled up with me
Em Bm
And I lost my head
F Am7 G
The thought was of all the stupid things I said


G Em Bm
e|-2-3-2----3---2-3-2---0---2-3-2---2--
B|-------3--3---------3-0---------3-3--
G|----------0-----------0-----------4--
D|----------0-----------2-----------4--
A|----------X-----------2-----------2--
E|----------3-----------0--------------

G Em Bm
e|---5-3-2--3---2-3-2---0---2-3-2---2--
B|--------3-3---------3-0---------3-3--
G|----------0-----------0-----------4--
D|----------0-----------2-----------4--
A|----------X-----------2-----------2--
E|----------3-----------0--------------


G Em Bm
Oh no , what's this?
F Am7 G
A spider web and I'm caught in the middle
Em Bm
So I turned to run
F Am7 G
The thought of all the stupid things I've done


A Em7
And I never meant to cause you trouble
A Em7
and I never meant to do you wrong
A Em7
And oh, well if i ever caused you trouble
A Em7
Oh, no i never meant to do you harm


G Em Bm

G Em Bm


G Em Bm e|-----------
Oh no , I see B|--7/-5/-3~-
F Am7 G
A spider web and it's me in the middle
Em Bm e|-----------
So I twist and turn B|--7/-5/-3~-
F Am7 G
Here I am in the middle of a bubble


A Em7
Singing, that I, I never meant to cause you trouble
A Em7
I, I never meant to do you wrong
A Em7
Oh, well if ever caused you trouble
A Em7
Although I never meant to do you harm


Em
D|-|--2-2---|-|
A|-|--------|-|
E|-|--------|-|

G Em Bm G Em Bm G Em Bm G Em Bm...
e|-|--3--0--2------|-|--3--0--2------|-|--3--0--2------|-|--3--0--(2)-------|-|
B|-|--0--0--3--2-5-|-|--0--0--3--2-5-|-|--0--0--3--2-5-|-|--0--0--(3)-------|-|
G|-|--0--0--4------|-|--0--0--4------|-|--0--0--4------|-|--0--0--(4)-------|-|
D|-|--0--2--4------|-|--0--2--4------|-|--0--2--4------|-|--0--2--(4)-------|-|
A|-|--2--2--2------|-|--2--2--2------|-|--2--2--2------|-|--2--2--(2)-------|-|
E|-|--3--0--X------|-|--3--0--X------|-|--3--0--X------|-|--3--0--(X)-------|-|


Em F#m G F#m
They spun a web for me
Em F#m G F#m
They spun a web for me
E m F#m G F#m
They spun a web for me


Em
D|-|--2-2-2-2--|-|
A|-|-----------|-|
E|-|-----------|-|

G Em Bm G Em Bm G Em Bm G Em Bm...
e|-|--3--0--2------|-|--3--0--2------|-|--3--0--2------|-|--3--0--(2)-------|-|
B|-|--0--0--3--2-5-|-|--0--0--3--2-5-|-|--0--0--3--2-5-|-|--0--0--(3)-------|-|
G|-|--0--0--4------|-|--0--0--4------|-|--0--0--4------|-|--0--0--(4)-------|-|
D|-|--0--2--4------|-|--0--2--4------|-|--0--2--4------|-|--0--2--(4)-------|-|
A|-|--2--2--2------|-|--2--2--2------|-|--2--2--2------|-|--2--2--(2)-------|-|
E|-|--3--0--X------|-|--3--0--X------|-|--3--0--X------|-|--3--0--(X)-------|-|

=-=-=-=-=-=-=-=-=-=-=-=-=-=-=-=-=-=
Se você tiver dois instrumentos
ou quiser um final mais simplificado
=-=-=-=-=-=-=-=-=-=-=-=-=-=-=-=-=-=

G D G D G D G D
E|-|-------|-|-------|-|-------|-|----{(10)}------|-|
B|-|-------|-|-------|-|-------|-|----{(10)}------|-|
G|-|-------|-|-------|-|-------|-|----{(12)}------|-|
D|-|----0-----0----|-|----0-----0----|-|----0-----0----|-|----0-----0---------|-|
A|-|---------------|-|---------------|-|---------------|-|--------------------|-|
e|-|---------------|-|---------------|-|---------------|-|--------------------|-|


Correção: Paulo "Black" Rená da Silva Santarém (pbrss@yahoo.com.br)
Correção: Diego e Adriano!! (tukakid@yahoo.com.br)
Mostrar acordes para teclado


A








variar

Am7








variar

Bm








variar

D








variar

E








variar

Em








variar


Em7








variar

F








variar

F#m








variar

G








variar

letrasdemusicas.com.br Esta letra foi retirada do site www.letrasdemusicas.com.br

Informações da música

Avaliação:
Acesso(s):
Ponto(s):
Média de pontos:
Fãs(s):

Vídeo clips de Coldplay

Carregando...

Digite o clip (música) que deseja assistir e aguarde:

  1. FAQ
  2. Política de privacidade
  3. Anuncie aqui
  4. Fale conosco
  5. Como funciona?

©2003 - 2019 Letras de Musicas.com.br. Todos os Direitos Reservados.

A música Trouble de Coldplay como todas as outras, são de propriedade da banda sendo permitido somente a visualização das letras de música encontradas no Letras de Músicas, vedada sua reprodução e cópias através de qualquer outros meios. (Lei 9610/98)